ISO-10303-21;
HEADER;
FILE_DESCRIPTION (( 'STEP AP214' ),
    '1' );
FILE_NAME ('0.625in Gray Melamine Birch Plywood(00BBT-2407-001-0C).STEP',
    '2023-08-29T15:09:27',
    ( '' ),
    ( '' ),
    'SwSTEP 2.0',
    'SolidWorks 2020',
    '' );
FILE_SCHEMA (( 'AUTOMOTIVE_DESIGN' ));
ENDSEC;

DATA;
#1 = EDGE_CURVE ( 'NONE', #82, #226, #51, .T. ) ;
#2 = CARTESIAN_POINT ( 'NONE',  ( -762.0000000000000000, 0.000000000000000000, -609.6000000000001364 ) ) ;
#3 = LINE ( 'NONE', #7, #211 ) ;
#4 = ORIENTED_EDGE ( 'NONE', *, *, #1, .T. ) ;
#5 =( LENGTH_UNIT ( ) NAMED_UNIT ( * ) SI_UNIT ( .MILLI., .METRE. ) );
#6 = PRODUCT ( '0.625in Gray Melamine Birch Plywood(00BBT-2407-001-0C)', '0.625in Gray Melamine Birch Plywood(00BBT-2407-001-0C)', '', ( #113 ) ) ;
#7 = CARTESIAN_POINT ( 'NONE',  ( 762.0000000000000000, 0.000000000000000000, 609.5999999999999091 ) ) ;
#8 = AXIS2_PLACEMENT_3D ( 'NONE', #32, #177, #90 ) ;
#9 = SHAPE_DEFINITION_REPRESENTATION ( #60, #27 ) ;
#10 = PRODUCT_DEFINITION ( 'UNKNOWN', '', #142, #232 ) ;
#11 = EDGE_LOOP ( 'NONE', ( #173, #140, #41, #154 ) ) ;
#12 =( NAMED_UNIT ( * ) SI_UNIT ( $, .STERADIAN. ) SOLID_ANGLE_UNIT ( ) );
#13 = FACE_OUTER_BOUND ( 'NONE', #53, .T. ) ;
#14 =( GEOMETRIC_REPRESENTATION_CONTEXT ( 3 ) GLOBAL_UNCERTAINTY_ASSIGNED_CONTEXT ( ( #152 ) ) GLOBAL_UNIT_ASSIGNED_CONTEXT ( ( #212, #33, #196 ) ) REPRESENTATION_CONTEXT ( 'NONE', 'WORKASPACE' ) );
#15 = ORIENTED_EDGE ( 'NONE', *, *, #86, .F. ) ;
#16 =( NAMED_UNIT ( * ) SI_UNIT ( $, .STERADIAN. ) SOLID_ANGLE_UNIT ( ) );
#17 = PRESENTATION_LAYER_ASSIGNMENT (  '', '', ( #182 ) ) ;
#18 = SURFACE_SIDE_STYLE ('',( #141 ) ) ;
#19 = UNCERTAINTY_MEASURE_WITH_UNIT (LENGTH_MEASURE( 1.000000000000000082E-05 ), #115, 'distance_accuracy_value', 'NONE');
#20 = FACE_OUTER_BOUND ( 'NONE', #192, .T. ) ;
#21 = MECHANICAL_DESIGN_GEOMETRIC_PRESENTATION_REPRESENTATION (  '', ( #126 ), #166 ) ;
#22 = VERTEX_POINT ( 'NONE', #49 ) ;
#23 = DIRECTION ( 'NONE',  ( -0.000000000000000000, -0.000000000000000000, 1.000000000000000000 ) ) ;
#24 = ORIENTED_EDGE ( 'NONE', *, *, #72, .T. ) ;
#25 = COLOUR_RGB ( '',0.7960784313725489669, 0.8235294117647058432, 0.9372549019607843146 ) ;
#26 = CARTESIAN_POINT ( 'NONE',  ( -762.0000000000000000, 15.87500000000000000, -609.6000000000001364 ) ) ;
#27 = ADVANCED_BREP_SHAPE_REPRESENTATION ( '0.625in Gray Melamine Birch Plywood(00BBT-2407-001-0C)', ( #128, #97 ), #138 ) ;
#28 = APPLICATION_PROTOCOL_DEFINITION ( 'draft international standard', 'automotive_design', 1998, #168 ) ;
#29 = ADVANCED_FACE ( 'NONE', ( #156 ), #85, .T. ) ;
#30 = DIRECTION ( 'NONE',  ( -0.000000000000000000, -1.000000000000000000, -0.000000000000000000 ) ) ;
#31 = VERTEX_POINT ( 'NONE', #228 ) ;
#32 = CARTESIAN_POINT ( 'NONE',  ( -762.0000000000000000, 15.87500000000000000, 609.5999999999999091 ) ) ;
#33 =( NAMED_UNIT ( * ) PLANE_ANGLE_UNIT ( ) SI_UNIT ( $, .RADIAN. ) );
#34 = MECHANICAL_DESIGN_GEOMETRIC_PRESENTATION_REPRESENTATION (  '', ( #137 ), #224 ) ;
#35 = CARTESIAN_POINT ( 'NONE',  ( -762.0000000000000000, 15.87500000000000000, -609.6000000000001364 ) ) ;
#36 = PRESENTATION_LAYER_ASSIGNMENT (  '', '', ( #126 ) ) ;
#37 = CARTESIAN_POINT ( 'NONE',  ( 762.0000000000000000, 0.000000000000000000, -609.6000000000001364 ) ) ;
#38 = ADVANCED_FACE ( 'NONE', ( #13 ), #66, .F. ) ;
#39 = FILL_AREA_STYLE ('',( #230 ) ) ;
#40 = STYLED_ITEM ( 'NONE', ( #214 ), #94 ) ;
#41 = ORIENTED_EDGE ( 'NONE', *, *, #135, .F. ) ;
#42 = CARTESIAN_POINT ( 'NONE',  ( -762.0000000000000000, 0.000000000000000000, 609.5999999999999091 ) ) ;
#43 = ORIENTED_EDGE ( 'NONE', *, *, #161, .F. ) ;
#44 = EDGE_CURVE ( 'NONE', #201, #164, #107, .T. ) ;
#45 = DIRECTION ( 'NONE',  ( 0.000000000000000000, 0.000000000000000000, 1.000000000000000000 ) ) ;
#46 = LINE ( 'NONE', #42, #78 ) ;
#47 = ORIENTED_EDGE ( 'NONE', *, *, #69, .F. ) ;
#48 = DIRECTION ( 'NONE',  ( -0.000000000000000000, -1.000000000000000000, -0.000000000000000000 ) ) ;
#49 = CARTESIAN_POINT ( 'NONE',  ( -762.0000000000000000, 15.87500000000000000, 609.5999999999999091 ) ) ;
#50 = VECTOR ( 'NONE', #213, 1000.000000000000000 ) ;
#51 = LINE ( 'NONE', #176, #105 ) ;
#52 = ORIENTED_EDGE ( 'NONE', *, *, #144, .F. ) ;
#53 = EDGE_LOOP ( 'NONE', ( #116, #157, #47, #172 ) ) ;
#54 = VECTOR ( 'NONE', #143, 1000.000000000000000 ) ;
#55 = LINE ( 'NONE', #2, #84 ) ;
#56 = EDGE_CURVE ( 'NONE', #22, #175, #120, .T. ) ;
#57 = CARTESIAN_POINT ( 'NONE',  ( 762.0000000000000000, 15.87500000000000000, -609.6000000000001364 ) ) ;
#58 = CARTESIAN_POINT ( 'NONE',  ( -762.0000000000000000, 0.000000000000000000, 609.5999999999999091 ) ) ;
#59 = CARTESIAN_POINT ( 'NONE',  ( 0.000000000000000000, 15.87500000000000000, 0.000000000000000000 ) ) ;
#60 = PRODUCT_DEFINITION_SHAPE ( 'NONE', 'NONE',  #10 ) ;
#61 = PRESENTATION_LAYER_ASSIGNMENT (  '', '', ( #40 ) ) ;
#62 =( NAMED_UNIT ( * ) PLANE_ANGLE_UNIT ( ) SI_UNIT ( $, .RADIAN. ) );
#63 = CARTESIAN_POINT ( 'NONE',  ( 762.0000000000000000, 0.000000000000000000, 609.5999999999999091 ) ) ;
#64 = DIRECTION ( 'NONE',  ( 0.000000000000000000, 0.000000000000000000, 1.000000000000000000 ) ) ;
#65 = EDGE_LOOP ( 'NONE', ( #167, #52, #80, #171 ) ) ;
#66 = PLANE ( 'NONE',  #74 ) ;
#67 = PRESENTATION_STYLE_ASSIGNMENT (( #189 ) ) ;
#68 = CARTESIAN_POINT ( 'NONE',  ( 0.000000000000000000, 0.000000000000000000, 0.000000000000000000 ) ) ;
#69 = EDGE_CURVE ( 'NONE', #22, #201, #124, .T. ) ;
#70 = COLOUR_RGB ( '',1.000000000000000000, 1.000000000000000000, 1.000000000000000000 ) ;
#71 = LINE ( 'NONE', #145, #50 ) ;
#72 = EDGE_CURVE ( 'NONE', #82, #122, #83, .T. ) ;
#73 = CARTESIAN_POINT ( 'NONE',  ( 762.0000000000000000, 15.87500000000000000, 609.5999999999999091 ) ) ;
#74 = AXIS2_PLACEMENT_3D ( 'NONE', #158, #208, #139 ) ;
#75 =( NAMED_UNIT ( * ) SI_UNIT ( $, .STERADIAN. ) SOLID_ANGLE_UNIT ( ) );
#76 = EDGE_CURVE ( 'NONE', #122, #31, #55, .T. ) ;
#77 = UNCERTAINTY_MEASURE_WITH_UNIT (LENGTH_MEASURE( 1.000000000000000082E-05 ), #5, 'distance_accuracy_value', 'NONE');
#78 = VECTOR ( 'NONE', #23, 1000.000000000000000 ) ;
#79 =( NAMED_UNIT ( * ) SI_UNIT ( $, .STERADIAN. ) SOLID_ANGLE_UNIT ( ) );
#80 = ORIENTED_EDGE ( 'NONE', *, *, #190, .F. ) ;
#81 = EDGE_LOOP ( 'NONE', ( #202, #151, #15, #185 ) ) ;
#82 = VERTEX_POINT ( 'NONE', #57 ) ;
#83 = LINE ( 'NONE', #209, #134 ) ;
#84 = VECTOR ( 'NONE', #111, 1000.000000000000000 ) ;
#85 = PLANE ( 'NONE',  #186 ) ;
#86 = EDGE_CURVE ( 'NONE', #201, #82, #92, .T. ) ;
#87 = FILL_AREA_STYLE ('',( #229 ) ) ;
#88 = APPLICATION_CONTEXT ( 'automotive_design' ) ;
#89 = AXIS2_PLACEMENT_3D ( 'NONE', #59, #129, #194 ) ;
#90 = DIRECTION ( 'NONE',  ( 0.000000000000000000, 0.000000000000000000, -1.000000000000000000 ) ) ;
#91 = LINE ( 'NONE', #58, #178 ) ;
#92 = LINE ( 'NONE', #73, #54 ) ;
#93 = CARTESIAN_POINT ( 'NONE',  ( 0.000000000000000000, 0.000000000000000000, 0.000000000000000000 ) ) ;
#94 = ADVANCED_FACE ( 'NONE', ( #20 ), #132, .F. ) ;
#95 = FILL_AREA_STYLE ('',( #98 ) ) ;
#96 = FACE_OUTER_BOUND ( 'NONE', #81, .T. ) ;
#97 = AXIS2_PLACEMENT_3D ( 'NONE', #93, #45, #162 ) ;
#98 = FILL_AREA_STYLE_COLOUR ( '', #106 ) ;
#99 = ORIENTED_EDGE ( 'NONE', *, *, #135, .T. ) ;
#100 = CARTESIAN_POINT ( 'NONE',  ( -762.0000000000000000, 15.87500000000000000, 609.5999999999999091 ) ) ;
#101 = COLOUR_RGB ( '',0.7960784313725489669, 0.8235294117647058432, 0.9372549019607843146 ) ;
#102 = DIRECTION ( 'NONE',  ( -1.000000000000000000, -0.000000000000000000, -0.000000000000000000 ) ) ;
#103 = DIRECTION ( 'NONE',  ( 1.000000000000000000, 0.000000000000000000, 0.000000000000000000 ) ) ;
#104 = ORIENTED_EDGE ( 'NONE', *, *, #86, .T. ) ;
#105 = VECTOR ( 'NONE', #102, 1000.000000000000000 ) ;
#106 = COLOUR_RGB ( '',1.000000000000000000, 1.000000000000000000, 1.000000000000000000 ) ;
#107 = LINE ( 'NONE', #203, #231 ) ;
#108 =( LENGTH_UNIT ( ) NAMED_UNIT ( * ) SI_UNIT ( .MILLI., .METRE. ) );
#109 = DIRECTION ( 'NONE',  ( -0.000000000000000000, -1.000000000000000000, -0.000000000000000000 ) ) ;
#110 =( NAMED_UNIT ( * ) PLANE_ANGLE_UNIT ( ) SI_UNIT ( $, .RADIAN. ) );
#111 = DIRECTION ( 'NONE',  ( -1.000000000000000000, -0.000000000000000000, -0.000000000000000000 ) ) ;
#112 = SURFACE_STYLE_FILL_AREA ( #39 ) ;
#113 = PRODUCT_CONTEXT ( 'NONE', #168, 'mechanical' ) ;
#114 = ORIENTED_EDGE ( 'NONE', *, *, #76, .T. ) ;
#115 =( LENGTH_UNIT ( ) NAMED_UNIT ( * ) SI_UNIT ( .MILLI., .METRE. ) );
#116 = ORIENTED_EDGE ( 'NONE', *, *, #144, .T. ) ;
#117 = PLANE ( 'NONE',  #199 ) ;
#118 = EDGE_LOOP ( 'NONE', ( #114, #43, #188, #24 ) ) ;
#119 = CARTESIAN_POINT ( 'NONE',  ( 762.0000000000000000, 15.87500000000000000, 609.5999999999999091 ) ) ;
#120 = LINE ( 'NONE', #205, #219 ) ;
#121 = ADVANCED_FACE ( 'NONE', ( #197 ), #179, .F. ) ;
#122 = VERTEX_POINT ( 'NONE', #37 ) ;
#123 = VECTOR ( 'NONE', #103, 1000.000000000000000 ) ;
#124 = LINE ( 'NONE', #100, #123 ) ;
#125 = DIRECTION ( 'NONE',  ( 0.000000000000000000, -0.000000000000000000, -1.000000000000000000 ) ) ;
#126 = STYLED_ITEM ( 'NONE', ( #198 ), #27 ) ;
#127 = FILL_AREA_STYLE ('',( #147 ) ) ;
#128 = MANIFOLD_SOLID_BREP ( 'Boss-Extrude1', #159 ) ;
#129 = DIRECTION ( 'NONE',  ( 0.000000000000000000, -1.000000000000000000, 0.000000000000000000 ) ) ;
#130 = DIRECTION ( 'NONE',  ( 1.000000000000000000, 0.000000000000000000, 0.000000000000000000 ) ) ;
#131 = SURFACE_STYLE_USAGE ( .BOTH. , #181 ) ;
#132 = PLANE ( 'NONE',  #89 ) ;
#133 = DIRECTION ( 'NONE',  ( -1.000000000000000000, 0.000000000000000000, 0.000000000000000000 ) ) ;
#134 = VECTOR ( 'NONE', #109, 1000.000000000000000 ) ;
#135 = EDGE_CURVE ( 'NONE', #226, #22, #71, .T. ) ;
#136 = DIRECTION ( 'NONE',  ( 0.000000000000000000, -1.000000000000000000, 0.000000000000000000 ) ) ;
#137 = STYLED_ITEM ( 'NONE', ( #67 ), #29 ) ;
#138 =( GEOMETRIC_REPRESENTATION_CONTEXT ( 3 ) GLOBAL_UNCERTAINTY_ASSIGNED_CONTEXT ( ( #19 ) ) GLOBAL_UNIT_ASSIGNED_CONTEXT ( ( #115, #153, #75 ) ) REPRESENTATION_CONTEXT ( 'NONE', 'WORKASPACE' ) );
#139 = DIRECTION ( 'NONE',  ( -1.000000000000000000, 0.000000000000000000, -0.000000000000000000 ) ) ;
#140 = ORIENTED_EDGE ( 'NONE', *, *, #56, .F. ) ;
#141 = SURFACE_STYLE_FILL_AREA ( #127 ) ;
#142 = PRODUCT_DEFINITION_FORMATION_WITH_SPECIFIED_SOURCE ( 'ANY', '', #6, .NOT_KNOWN. ) ;
#143 = DIRECTION ( 'NONE',  ( 0.000000000000000000, 0.000000000000000000, -1.000000000000000000 ) ) ;
#144 = EDGE_CURVE ( 'NONE', #175, #164, #91, .T. ) ;
#145 = CARTESIAN_POINT ( 'NONE',  ( -762.0000000000000000, 15.87500000000000000, 609.5999999999999091 ) ) ;
#146 = UNCERTAINTY_MEASURE_WITH_UNIT (LENGTH_MEASURE( 1.000000000000000082E-05 ), #191, 'distance_accuracy_value', 'NONE');
#147 = FILL_AREA_STYLE_COLOUR ( '', #101 ) ;
#148 = UNCERTAINTY_MEASURE_WITH_UNIT (LENGTH_MEASURE( 1.000000000000000082E-05 ), #108, 'distance_accuracy_value', 'NONE');
#149 = DIRECTION ( 'NONE',  ( 0.000000000000000000, 0.000000000000000000, -1.000000000000000000 ) ) ;
#150 = MECHANICAL_DESIGN_GEOMETRIC_PRESENTATION_REPRESENTATION (  '', ( #182 ), #193 ) ;
#151 = ORIENTED_EDGE ( 'NONE', *, *, #72, .F. ) ;
#152 = UNCERTAINTY_MEASURE_WITH_UNIT (LENGTH_MEASURE( 1.000000000000000082E-05 ), #212, 'distance_accuracy_value', 'NONE');
#153 =( NAMED_UNIT ( * ) PLANE_ANGLE_UNIT ( ) SI_UNIT ( $, .RADIAN. ) );
#154 = ORIENTED_EDGE ( 'NONE', *, *, #161, .T. ) ;
#155 = ORIENTED_EDGE ( 'NONE', *, *, #69, .T. ) ;
#156 = FACE_OUTER_BOUND ( 'NONE', #65, .T. ) ;
#157 = ORIENTED_EDGE ( 'NONE', *, *, #44, .F. ) ;
#158 = CARTESIAN_POINT ( 'NONE',  ( -762.0000000000000000, 15.87500000000000000, 609.5999999999999091 ) ) ;
#159 = CLOSED_SHELL ( 'NONE', ( #174, #206, #121, #38, #94, #29 ) ) ;
#160 = DIRECTION ( 'NONE',  ( -0.000000000000000000, -1.000000000000000000, -0.000000000000000000 ) ) ;
#161 = EDGE_CURVE ( 'NONE', #226, #31, #195, .T. ) ;
#162 = DIRECTION ( 'NONE',  ( 1.000000000000000000, 0.000000000000000000, 0.000000000000000000 ) ) ;
#163 = PLANE ( 'NONE',  #207 ) ;
#164 = VERTEX_POINT ( 'NONE', #63 ) ;
#165 = PRESENTATION_LAYER_ASSIGNMENT (  '', '', ( #137 ) ) ;
#166 =( GEOMETRIC_REPRESENTATION_CONTEXT ( 3 ) GLOBAL_UNCERTAINTY_ASSIGNED_CONTEXT ( ( #77 ) ) GLOBAL_UNIT_ASSIGNED_CONTEXT ( ( #5, #62, #79 ) ) REPRESENTATION_CONTEXT ( 'NONE', 'WORKASPACE' ) );
#167 = ORIENTED_EDGE ( 'NONE', *, *, #184, .F. ) ;
#168 = APPLICATION_CONTEXT ( 'automotive_design' ) ;
#169 = SURFACE_SIDE_STYLE ('',( #222 ) ) ;
#170 = VECTOR ( 'NONE', #160, 1000.000000000000000 ) ;
#171 = ORIENTED_EDGE ( 'NONE', *, *, #76, .F. ) ;
#172 = ORIENTED_EDGE ( 'NONE', *, *, #56, .T. ) ;
#173 = ORIENTED_EDGE ( 'NONE', *, *, #190, .T. ) ;
#174 = ADVANCED_FACE ( 'NONE', ( #96 ), #117, .F. ) ;
#175 = VERTEX_POINT ( 'NONE', #187 ) ;
#176 = CARTESIAN_POINT ( 'NONE',  ( -762.0000000000000000, 15.87500000000000000, -609.6000000000001364 ) ) ;
#177 = DIRECTION ( 'NONE',  ( 1.000000000000000000, -0.000000000000000000, 0.000000000000000000 ) ) ;
#178 = VECTOR ( 'NONE', #130, 1000.000000000000000 ) ;
#179 = PLANE ( 'NONE',  #8 ) ;
#180 = PRESENTATION_STYLE_ASSIGNMENT (( #131 ) ) ;
#181 = SURFACE_SIDE_STYLE ('',( #112 ) ) ;
#182 = STYLED_ITEM ( 'NONE', ( #180 ), #128 ) ;
#183 = FACE_OUTER_BOUND ( 'NONE', #118, .T. ) ;
#184 = EDGE_CURVE ( 'NONE', #164, #122, #3, .T. ) ;
#185 = ORIENTED_EDGE ( 'NONE', *, *, #44, .T. ) ;
#186 = AXIS2_PLACEMENT_3D ( 'NONE', #68, #136, #125 ) ;
#187 = CARTESIAN_POINT ( 'NONE',  ( -762.0000000000000000, 0.000000000000000000, 609.5999999999999091 ) ) ;
#188 = ORIENTED_EDGE ( 'NONE', *, *, #1, .F. ) ;
#189 = SURFACE_STYLE_USAGE ( .BOTH. , #225 ) ;
#190 = EDGE_CURVE ( 'NONE', #31, #175, #46, .T. ) ;
#191 =( LENGTH_UNIT ( ) NAMED_UNIT ( * ) SI_UNIT ( .MILLI., .METRE. ) );
#192 = EDGE_LOOP ( 'NONE', ( #104, #4, #99, #155 ) ) ;
#193 =( GEOMETRIC_REPRESENTATION_CONTEXT ( 3 ) GLOBAL_UNCERTAINTY_ASSIGNED_CONTEXT ( ( #148 ) ) GLOBAL_UNIT_ASSIGNED_CONTEXT ( ( #108, #110, #16 ) ) REPRESENTATION_CONTEXT ( 'NONE', 'WORKASPACE' ) );
#194 = DIRECTION ( 'NONE',  ( 0.000000000000000000, -0.000000000000000000, -1.000000000000000000 ) ) ;
#195 = LINE ( 'NONE', #35, #170 ) ;
#196 =( NAMED_UNIT ( * ) SI_UNIT ( $, .STERADIAN. ) SOLID_ANGLE_UNIT ( ) );
#197 = FACE_OUTER_BOUND ( 'NONE', #11, .T. ) ;
#198 = PRESENTATION_STYLE_ASSIGNMENT (( #200 ) ) ;
#199 = AXIS2_PLACEMENT_3D ( 'NONE', #223, #133, #220 ) ;
#200 = SURFACE_STYLE_USAGE ( .BOTH. , #169 ) ;
#201 = VERTEX_POINT ( 'NONE', #119 ) ;
#202 = ORIENTED_EDGE ( 'NONE', *, *, #184, .T. ) ;
#203 = CARTESIAN_POINT ( 'NONE',  ( 762.0000000000000000, 15.87500000000000000, 609.5999999999999091 ) ) ;
#204 = APPLICATION_PROTOCOL_DEFINITION ( 'draft international standard', 'automotive_design', 1998, #88 ) ;
#205 = CARTESIAN_POINT ( 'NONE',  ( -762.0000000000000000, 15.87500000000000000, 609.5999999999999091 ) ) ;
#206 = ADVANCED_FACE ( 'NONE', ( #183 ), #163, .F. ) ;
#207 = AXIS2_PLACEMENT_3D ( 'NONE', #26, #64, #217 ) ;
#208 = DIRECTION ( 'NONE',  ( 0.000000000000000000, 0.000000000000000000, -1.000000000000000000 ) ) ;
#209 = CARTESIAN_POINT ( 'NONE',  ( 762.0000000000000000, 15.87500000000000000, -609.6000000000001364 ) ) ;
#210 =( NAMED_UNIT ( * ) PLANE_ANGLE_UNIT ( ) SI_UNIT ( $, .RADIAN. ) );
#211 = VECTOR ( 'NONE', #149, 1000.000000000000000 ) ;
#212 =( LENGTH_UNIT ( ) NAMED_UNIT ( * ) SI_UNIT ( .MILLI., .METRE. ) );
#213 = DIRECTION ( 'NONE',  ( -0.000000000000000000, -0.000000000000000000, 1.000000000000000000 ) ) ;
#214 = PRESENTATION_STYLE_ASSIGNMENT (( #216 ) ) ;
#215 = MECHANICAL_DESIGN_GEOMETRIC_PRESENTATION_REPRESENTATION (  '', ( #40 ), #14 ) ;
#216 = SURFACE_STYLE_USAGE ( .BOTH. , #18 ) ;
#217 = DIRECTION ( 'NONE',  ( 1.000000000000000000, 0.000000000000000000, -0.000000000000000000 ) ) ;
#218 = CARTESIAN_POINT ( 'NONE',  ( -762.0000000000000000, 15.87500000000000000, -609.6000000000001364 ) ) ;
#219 = VECTOR ( 'NONE', #30, 1000.000000000000000 ) ;
#220 = DIRECTION ( 'NONE',  ( 0.000000000000000000, 0.000000000000000000, 1.000000000000000000 ) ) ;
#221 = PRODUCT_RELATED_PRODUCT_CATEGORY ( 'part', '', ( #6 ) ) ;
#222 = SURFACE_STYLE_FILL_AREA ( #95 ) ;
#223 = CARTESIAN_POINT ( 'NONE',  ( 762.0000000000000000, 15.87500000000000000, 609.5999999999999091 ) ) ;
#224 =( GEOMETRIC_REPRESENTATION_CONTEXT ( 3 ) GLOBAL_UNCERTAINTY_ASSIGNED_CONTEXT ( ( #146 ) ) GLOBAL_UNIT_ASSIGNED_CONTEXT ( ( #191, #210, #12 ) ) REPRESENTATION_CONTEXT ( 'NONE', 'WORKASPACE' ) );
#225 = SURFACE_SIDE_STYLE ('',( #227 ) ) ;
#226 = VERTEX_POINT ( 'NONE', #218 ) ;
#227 = SURFACE_STYLE_FILL_AREA ( #87 ) ;
#228 = CARTESIAN_POINT ( 'NONE',  ( -762.0000000000000000, 0.000000000000000000, -609.6000000000001364 ) ) ;
#229 = FILL_AREA_STYLE_COLOUR ( '', #25 ) ;
#230 = FILL_AREA_STYLE_COLOUR ( '', #70 ) ;
#231 = VECTOR ( 'NONE', #48, 1000.000000000000000 ) ;
#232 = PRODUCT_DEFINITION_CONTEXT ( 'detailed design', #88, 'design' ) ;
ENDSEC;
END-ISO-10303-21;
