ISO-10303-21;
HEADER;
FILE_DESCRIPTION (( 'STEP AP214' ),
    '1' );
FILE_NAME ('5.6mm Black ABS Panel(00DPA-1401-002-00).STEP',
    '2023-08-29T14:42:02',
    ( '' ),
    ( '' ),
    'SwSTEP 2.0',
    'SolidWorks 2020',
    '' );
FILE_SCHEMA (( 'AUTOMOTIVE_DESIGN' ));
ENDSEC;

DATA;
#1 = ORIENTED_EDGE ( 'NONE', *, *, #95, .F. ) ;
#2 = AXIS2_PLACEMENT_3D ( 'NONE', #106, #4, #22 ) ;
#3 = DIRECTION ( 'NONE',  ( 0.000000000000000000, 0.000000000000000000, 1.000000000000000000 ) ) ;
#4 = DIRECTION ( 'NONE',  ( 0.000000000000000000, 0.000000000000000000, 1.000000000000000000 ) ) ;
#5 = DIRECTION ( 'NONE',  ( -0.000000000000000000, 0.000000000000000000, 1.000000000000000000 ) ) ;
#6 = LINE ( 'NONE', #157, #153 ) ;
#7 =( NAMED_UNIT ( * ) SI_UNIT ( $, .STERADIAN. ) SOLID_ANGLE_UNIT ( ) );
#8 = AXIS2_PLACEMENT_3D ( 'NONE', #94, #187, #64 ) ;
#9 = EDGE_CURVE ( 'NONE', #130, #134, #168, .T. ) ;
#10 =( NAMED_UNIT ( * ) PLANE_ANGLE_UNIT ( ) SI_UNIT ( $, .RADIAN. ) );
#11 = CARTESIAN_POINT ( 'NONE',  ( 1219.199999999999818, 2438.400000000000091, -5.588000000000000078 ) ) ;
#12 = VECTOR ( 'NONE', #51, 1000.000000000000000 ) ;
#13 = EDGE_LOOP ( 'NONE', ( #166, #116, #186, #58 ) ) ;
#14 = ORIENTED_EDGE ( 'NONE', *, *, #193, .F. ) ;
#15 = VECTOR ( 'NONE', #126, 1000.000000000000000 ) ;
#16 = ORIENTED_EDGE ( 'NONE', *, *, #121, .T. ) ;
#17 = DIRECTION ( 'NONE',  ( -9.106159978880877395E-17, 1.000000000000000000, 0.000000000000000000 ) ) ;
#18 = CARTESIAN_POINT ( 'NONE',  ( -2.111527193632912833E-13, 2438.400000000000091, -5.588000000000000078 ) ) ;
#19 = LINE ( 'NONE', #105, #25 ) ;
#20 = LINE ( 'NONE', #40, #180 ) ;
#21 = DIRECTION ( 'NONE',  ( -1.000000000000000000, -0.000000000000000000, -0.000000000000000000 ) ) ;
#22 = DIRECTION ( 'NONE',  ( 1.000000000000000000, 0.000000000000000000, 0.000000000000000000 ) ) ;
#23 = EDGE_CURVE ( 'NONE', #199, #72, #48, .T. ) ;
#24 = PRESENTATION_STYLE_ASSIGNMENT (( #44 ) ) ;
#25 = VECTOR ( 'NONE', #39, 1000.000000000000000 ) ;
#26 = FILL_AREA_STYLE ('',( #41 ) ) ;
#27 = FACE_OUTER_BOUND ( 'NONE', #185, .T. ) ;
#28 = ADVANCED_FACE ( 'NONE', ( #102 ), #182, .T. ) ;
#29 = VECTOR ( 'NONE', #73, 1000.000000000000000 ) ;
#30 = EDGE_CURVE ( 'NONE', #134, #37, #89, .T. ) ;
#31 = PRODUCT_DEFINITION_FORMATION_WITH_SPECIFIED_SOURCE ( 'ANY', '', #172, .NOT_KNOWN. ) ;
#32 = ORIENTED_EDGE ( 'NONE', *, *, #36, .T. ) ;
#33 = ORIENTED_EDGE ( 'NONE', *, *, #23, .T. ) ;
#34 = ORIENTED_EDGE ( 'NONE', *, *, #60, .F. ) ;
#35 = EDGE_LOOP ( 'NONE', ( #112, #114, #32, #71 ) ) ;
#36 = EDGE_CURVE ( 'NONE', #167, #199, #148, .T. ) ;
#37 = VERTEX_POINT ( 'NONE', #184 ) ;
#38 = DIRECTION ( 'NONE',  ( 0.000000000000000000, 0.000000000000000000, 1.000000000000000000 ) ) ;
#39 = DIRECTION ( 'NONE',  ( 0.000000000000000000, 0.000000000000000000, 1.000000000000000000 ) ) ;
#40 = CARTESIAN_POINT ( 'NONE',  ( 2.775557561562891351E-14, 0.000000000000000000, -5.588000000000000078 ) ) ;
#41 = FILL_AREA_STYLE_COLOUR ( '', #161 ) ;
#42 = FACE_OUTER_BOUND ( 'NONE', #13, .T. ) ;
#43 = VECTOR ( 'NONE', #195, 1000.000000000000000 ) ;
#44 = SURFACE_STYLE_USAGE ( .BOTH. , #125 ) ;
#45 = SURFACE_STYLE_USAGE ( .BOTH. , #159 ) ;
#46 = ADVANCED_FACE ( 'NONE', ( #50 ), #151, .T. ) ;
#47 = MECHANICAL_DESIGN_GEOMETRIC_PRESENTATION_REPRESENTATION (  '', ( #57 ), #81 ) ;
#48 = LINE ( 'NONE', #201, #150 ) ;
#49 = ADVANCED_FACE ( 'NONE', ( #141 ), #173, .T. ) ;
#50 = FACE_OUTER_BOUND ( 'NONE', #70, .T. ) ;
#51 = DIRECTION ( 'NONE',  ( 9.797748317705062137E-17, -1.000000000000000000, 0.000000000000000000 ) ) ;
#52 = EDGE_LOOP ( 'NONE', ( #14, #34, #149, #16 ) ) ;
#53 = CARTESIAN_POINT ( 'NONE',  ( 1219.200000000000045, 0.000000000000000000, -5.588000000000000078 ) ) ;
#54 = CARTESIAN_POINT ( 'NONE',  ( 1219.199999999999818, 2438.400000000000091, 0.000000000000000000 ) ) ;
#55 = CARTESIAN_POINT ( 'NONE',  ( 2.775557561562891351E-14, 0.000000000000000000, 0.000000000000000000 ) ) ;
#56 = EDGE_CURVE ( 'NONE', #199, #130, #6, .T. ) ;
#57 = STYLED_ITEM ( 'NONE', ( #24 ), #147 ) ;
#58 = ORIENTED_EDGE ( 'NONE', *, *, #97, .F. ) ;
#59 = CARTESIAN_POINT ( 'NONE',  ( -2.111527193632912833E-13, 2438.400000000000091, -5.588000000000000078 ) ) ;
#60 = EDGE_CURVE ( 'NONE', #113, #37, #189, .T. ) ;
#61 = ORIENTED_EDGE ( 'NONE', *, *, #30, .F. ) ;
#62 = STYLED_ITEM ( 'NONE', ( #194 ), #156 ) ;
#63 = ORIENTED_EDGE ( 'NONE', *, *, #60, .T. ) ;
#64 = DIRECTION ( 'NONE',  ( 0.000000000000000000, -0.000000000000000000, -1.000000000000000000 ) ) ;
#65 = DIRECTION ( 'NONE',  ( -1.000000000000000000, -9.797748317705062137E-17, 0.000000000000000000 ) ) ;
#66 = CARTESIAN_POINT ( 'NONE',  ( -2.111527193632912833E-13, 2438.400000000000091, -5.588000000000000078 ) ) ;
#67 = CARTESIAN_POINT ( 'NONE',  ( -2.111527193632912833E-13, 2438.400000000000091, -5.588000000000000078 ) ) ;
#68 = PLANE ( 'NONE',  #69 ) ;
#69 = AXIS2_PLACEMENT_3D ( 'NONE', #178, #124, #145 ) ;
#70 = EDGE_LOOP ( 'NONE', ( #74, #170, #33, #99 ) ) ;
#71 = ORIENTED_EDGE ( 'NONE', *, *, #56, .T. ) ;
#72 = VERTEX_POINT ( 'NONE', #76 ) ;
#73 = DIRECTION ( 'NONE',  ( -1.000000000000000000, -0.000000000000000000, -0.000000000000000000 ) ) ;
#74 = ORIENTED_EDGE ( 'NONE', *, *, #9, .F. ) ;
#75 = COLOUR_RGB ( '',0.1098039215686274495, 0.1098039215686274495, 0.1098039215686274495 ) ;
#76 = CARTESIAN_POINT ( 'NONE',  ( 2.775557561562891351E-14, 0.000000000000000000, -5.588000000000000078 ) ) ;
#77 = LINE ( 'NONE', #190, #43 ) ;
#78 = PLANE ( 'NONE',  #8 ) ;
#79 = PRODUCT_CONTEXT ( 'NONE', #111, 'mechanical' ) ;
#80 = CARTESIAN_POINT ( 'NONE',  ( 1219.199999999999818, 2438.400000000000091, 0.000000000000000000 ) ) ;
#81 =( GEOMETRIC_REPRESENTATION_CONTEXT ( 3 ) GLOBAL_UNCERTAINTY_ASSIGNED_CONTEXT ( ( #93 ) ) GLOBAL_UNIT_ASSIGNED_CONTEXT ( ( #96, #10, #155 ) ) REPRESENTATION_CONTEXT ( 'NONE', 'WORKASPACE' ) );
#82 = DIRECTION ( 'NONE',  ( 1.000000000000000000, 0.000000000000000000, 0.000000000000000000 ) ) ;
#83 = LINE ( 'NONE', #80, #15 ) ;
#84 = PRESENTATION_LAYER_ASSIGNMENT (  '', '', ( #62 ) ) ;
#85 = ORIENTED_EDGE ( 'NONE', *, *, #30, .T. ) ;
#86 = VERTEX_POINT ( 'NONE', #54 ) ;
#87 = VECTOR ( 'NONE', #107, 1000.000000000000000 ) ;
#88 = DIRECTION ( 'NONE',  ( 1.000000000000000000, 9.106159978880877395E-17, -0.000000000000000000 ) ) ;
#89 = LINE ( 'NONE', #133, #137 ) ;
#90 = ORIENTED_EDGE ( 'NONE', *, *, #9, .T. ) ;
#91 = CARTESIAN_POINT ( 'NONE',  ( 1219.200000000000045, 0.000000000000000000, -5.588000000000000078 ) ) ;
#92 = SHAPE_DEFINITION_REPRESENTATION ( #200, #156 ) ;
#93 = UNCERTAINTY_MEASURE_WITH_UNIT (LENGTH_MEASURE( 1.000000000000000082E-05 ), #96, 'distance_accuracy_value', 'NONE');
#94 = CARTESIAN_POINT ( 'NONE',  ( 2.775557561562891351E-14, 0.000000000000000000, -5.588000000000000078 ) ) ;
#95 = EDGE_CURVE ( 'NONE', #72, #134, #20, .T. ) ;
#96 =( LENGTH_UNIT ( ) NAMED_UNIT ( * ) SI_UNIT ( .MILLI., .METRE. ) );
#97 = EDGE_CURVE ( 'NONE', #72, #113, #123, .T. ) ;
#98 = ORIENTED_EDGE ( 'NONE', *, *, #97, .T. ) ;
#99 = ORIENTED_EDGE ( 'NONE', *, *, #95, .T. ) ;
#100 = EDGE_LOOP ( 'NONE', ( #61, #1, #98, #63 ) ) ;
#101 =( GEOMETRIC_REPRESENTATION_CONTEXT ( 3 ) GLOBAL_UNCERTAINTY_ASSIGNED_CONTEXT ( ( #115 ) ) GLOBAL_UNIT_ASSIGNED_CONTEXT ( ( #118, #120, #188 ) ) REPRESENTATION_CONTEXT ( 'NONE', 'WORKASPACE' ) );
#102 = FACE_OUTER_BOUND ( 'NONE', #52, .T. ) ;
#103 = ORIENTED_EDGE ( 'NONE', *, *, #110, .T. ) ;
#104 = ADVANCED_FACE ( 'NONE', ( #191 ), #78, .T. ) ;
#105 = CARTESIAN_POINT ( 'NONE',  ( 1219.199999999999818, 2438.400000000000091, -5.588000000000000078 ) ) ;
#106 = CARTESIAN_POINT ( 'NONE',  ( 0.000000000000000000, 0.000000000000000000, 0.000000000000000000 ) ) ;
#107 = DIRECTION ( 'NONE',  ( 1.000000000000000000, 0.000000000000000000, 0.000000000000000000 ) ) ;
#108 =( LENGTH_UNIT ( ) NAMED_UNIT ( * ) SI_UNIT ( .MILLI., .METRE. ) );
#109 = CARTESIAN_POINT ( 'NONE',  ( -2.111527193632912833E-13, 2438.400000000000091, 0.000000000000000000 ) ) ;
#110 = EDGE_CURVE ( 'NONE', #86, #130, #152, .T. ) ;
#111 = APPLICATION_CONTEXT ( 'automotive_design' ) ;
#112 = ORIENTED_EDGE ( 'NONE', *, *, #110, .F. ) ;
#113 = VERTEX_POINT ( 'NONE', #53 ) ;
#114 = ORIENTED_EDGE ( 'NONE', *, *, #121, .F. ) ;
#115 = UNCERTAINTY_MEASURE_WITH_UNIT (LENGTH_MEASURE( 1.000000000000000082E-05 ), #118, 'distance_accuracy_value', 'NONE');
#116 = ORIENTED_EDGE ( 'NONE', *, *, #36, .F. ) ;
#117 = CARTESIAN_POINT ( 'NONE',  ( -2.111527193632912833E-13, 2438.400000000000091, 0.000000000000000000 ) ) ;
#118 =( LENGTH_UNIT ( ) NAMED_UNIT ( * ) SI_UNIT ( .MILLI., .METRE. ) );
#119 = DIRECTION ( 'NONE',  ( 0.000000000000000000, 1.000000000000000000, 0.000000000000000000 ) ) ;
#120 =( NAMED_UNIT ( * ) PLANE_ANGLE_UNIT ( ) SI_UNIT ( $, .RADIAN. ) );
#121 = EDGE_CURVE ( 'NONE', #167, #86, #19, .T. ) ;
#122 = AXIS2_PLACEMENT_3D ( 'NONE', #67, #119, #176 ) ;
#123 = LINE ( 'NONE', #138, #87 ) ;
#124 = DIRECTION ( 'NONE',  ( -0.000000000000000000, 0.000000000000000000, 1.000000000000000000 ) ) ;
#125 = SURFACE_SIDE_STYLE ('',( #179 ) ) ;
#126 = DIRECTION ( 'NONE',  ( -9.106159978880878627E-17, 1.000000000000000000, -0.000000000000000000 ) ) ;
#127 = AXIS2_PLACEMENT_3D ( 'NONE', #18, #65, #139 ) ;
#128 = AXIS2_PLACEMENT_3D ( 'NONE', #140, #5, #82 ) ;
#129 = CARTESIAN_POINT ( 'NONE',  ( -2.111527193632912833E-13, 2438.400000000000091, 0.000000000000000000 ) ) ;
#130 = VERTEX_POINT ( 'NONE', #109 ) ;
#131 = PRODUCT_RELATED_PRODUCT_CATEGORY ( 'part', '', ( #172 ) ) ;
#132 = PRESENTATION_LAYER_ASSIGNMENT (  '', '', ( #57 ) ) ;
#133 = CARTESIAN_POINT ( 'NONE',  ( 2.775557561562891351E-14, 0.000000000000000000, 0.000000000000000000 ) ) ;
#134 = VERTEX_POINT ( 'NONE', #55 ) ;
#135 = ORIENTED_EDGE ( 'NONE', *, *, #193, .T. ) ;
#136 = UNCERTAINTY_MEASURE_WITH_UNIT (LENGTH_MEASURE( 1.000000000000000082E-05 ), #108, 'distance_accuracy_value', 'NONE');
#137 = VECTOR ( 'NONE', #202, 1000.000000000000000 ) ;
#138 = CARTESIAN_POINT ( 'NONE',  ( 2.775557561562891351E-14, 0.000000000000000000, -5.588000000000000078 ) ) ;
#139 = DIRECTION ( 'NONE',  ( 9.797748317705062137E-17, -1.000000000000000000, 0.000000000000000000 ) ) ;
#140 = CARTESIAN_POINT ( 'NONE',  ( 0.000000000000000000, 0.000000000000000000, -5.588000000000000078 ) ) ;
#141 = FACE_OUTER_BOUND ( 'NONE', #35, .T. ) ;
#142 = VECTOR ( 'NONE', #21, 1000.000000000000000 ) ;
#143 =( NAMED_UNIT ( * ) PLANE_ANGLE_UNIT ( ) SI_UNIT ( $, .RADIAN. ) );
#144 = SURFACE_STYLE_FILL_AREA ( #26 ) ;
#145 = DIRECTION ( 'NONE',  ( 1.000000000000000000, 0.000000000000000000, 0.000000000000000000 ) ) ;
#146 = VECTOR ( 'NONE', #154, 1000.000000000000000 ) ;
#147 = MANIFOLD_SOLID_BREP ( 'Main Extrusion', #174 ) ;
#148 = LINE ( 'NONE', #59, #29 ) ;
#149 = ORIENTED_EDGE ( 'NONE', *, *, #169, .T. ) ;
#150 = VECTOR ( 'NONE', #171, 1000.000000000000000 ) ;
#151 = PLANE ( 'NONE',  #127 ) ;
#152 = LINE ( 'NONE', #117, #142 ) ;
#153 = VECTOR ( 'NONE', #38, 1000.000000000000000 ) ;
#154 = DIRECTION ( 'NONE',  ( 0.000000000000000000, 0.000000000000000000, 1.000000000000000000 ) ) ;
#155 =( NAMED_UNIT ( * ) SI_UNIT ( $, .STERADIAN. ) SOLID_ANGLE_UNIT ( ) );
#156 = ADVANCED_BREP_SHAPE_REPRESENTATION ( '5.6mm Black ABS Panel(00DPA-1401-002-00)', ( #147, #2 ), #101 ) ;
#157 = CARTESIAN_POINT ( 'NONE',  ( -2.111527193632912833E-13, 2438.400000000000091, -5.588000000000000078 ) ) ;
#158 = APPLICATION_PROTOCOL_DEFINITION ( 'draft international standard', 'automotive_design', 1998, #111 ) ;
#159 = SURFACE_SIDE_STYLE ('',( #144 ) ) ;
#160 = FILL_AREA_STYLE ('',( #163 ) ) ;
#161 = COLOUR_RGB ( '',0.1098039215686274495, 0.1098039215686274495, 0.1098039215686274495 ) ;
#162 = ADVANCED_FACE ( 'NONE', ( #27 ), #68, .T. ) ;
#163 = FILL_AREA_STYLE_COLOUR ( '', #75 ) ;
#164 = MECHANICAL_DESIGN_GEOMETRIC_PRESENTATION_REPRESENTATION (  '', ( #62 ), #196 ) ;
#165 = PRODUCT_DEFINITION_CONTEXT ( 'detailed design', #183, 'design' ) ;
#166 = ORIENTED_EDGE ( 'NONE', *, *, #23, .F. ) ;
#167 = VERTEX_POINT ( 'NONE', #11 ) ;
#168 = LINE ( 'NONE', #129, #12 ) ;
#169 = EDGE_CURVE ( 'NONE', #113, #167, #77, .T. ) ;
#170 = ORIENTED_EDGE ( 'NONE', *, *, #56, .F. ) ;
#171 = DIRECTION ( 'NONE',  ( 9.797748317705062137E-17, -1.000000000000000000, 0.000000000000000000 ) ) ;
#172 = PRODUCT ( '5.6mm Black ABS Panel(00DPA-1401-002-00)', '5.6mm Black ABS Panel(00DPA-1401-002-00)', '', ( #79 ) ) ;
#173 = PLANE ( 'NONE',  #122 ) ;
#174 = CLOSED_SHELL ( 'NONE', ( #46, #49, #28, #104, #175, #162 ) ) ;
#175 = ADVANCED_FACE ( 'NONE', ( #42 ), #177, .F. ) ;
#176 = DIRECTION ( 'NONE',  ( 0.000000000000000000, -0.000000000000000000, 1.000000000000000000 ) ) ;
#177 = PLANE ( 'NONE',  #128 ) ;
#178 = CARTESIAN_POINT ( 'NONE',  ( 0.000000000000000000, 0.000000000000000000, 0.000000000000000000 ) ) ;
#179 = SURFACE_STYLE_FILL_AREA ( #160 ) ;
#180 = VECTOR ( 'NONE', #3, 1000.000000000000000 ) ;
#181 = AXIS2_PLACEMENT_3D ( 'NONE', #198, #88, #17 ) ;
#182 = PLANE ( 'NONE',  #181 ) ;
#183 = APPLICATION_CONTEXT ( 'automotive_design' ) ;
#184 = CARTESIAN_POINT ( 'NONE',  ( 1219.200000000000045, 0.000000000000000000, 0.000000000000000000 ) ) ;
#185 = EDGE_LOOP ( 'NONE', ( #90, #85, #135, #103 ) ) ;
#186 = ORIENTED_EDGE ( 'NONE', *, *, #169, .F. ) ;
#187 = DIRECTION ( 'NONE',  ( 0.000000000000000000, -1.000000000000000000, 0.000000000000000000 ) ) ;
#188 =( NAMED_UNIT ( * ) SI_UNIT ( $, .STERADIAN. ) SOLID_ANGLE_UNIT ( ) );
#189 = LINE ( 'NONE', #91, #146 ) ;
#190 = CARTESIAN_POINT ( 'NONE',  ( 1219.199999999999818, 2438.400000000000091, -5.588000000000000078 ) ) ;
#191 = FACE_OUTER_BOUND ( 'NONE', #100, .T. ) ;
#192 = APPLICATION_PROTOCOL_DEFINITION ( 'draft international standard', 'automotive_design', 1998, #183 ) ;
#193 = EDGE_CURVE ( 'NONE', #37, #86, #83, .T. ) ;
#194 = PRESENTATION_STYLE_ASSIGNMENT (( #45 ) ) ;
#195 = DIRECTION ( 'NONE',  ( -9.106159978880878627E-17, 1.000000000000000000, -0.000000000000000000 ) ) ;
#196 =( GEOMETRIC_REPRESENTATION_CONTEXT ( 3 ) GLOBAL_UNCERTAINTY_ASSIGNED_CONTEXT ( ( #136 ) ) GLOBAL_UNIT_ASSIGNED_CONTEXT ( ( #108, #143, #7 ) ) REPRESENTATION_CONTEXT ( 'NONE', 'WORKASPACE' ) );
#197 = PRODUCT_DEFINITION ( 'UNKNOWN', '', #31, #165 ) ;
#198 = CARTESIAN_POINT ( 'NONE',  ( 1219.199999999999818, 2438.400000000000091, -5.588000000000000078 ) ) ;
#199 = VERTEX_POINT ( 'NONE', #66 ) ;
#200 = PRODUCT_DEFINITION_SHAPE ( 'NONE', 'NONE',  #197 ) ;
#201 = CARTESIAN_POINT ( 'NONE',  ( -2.111527193632912833E-13, 2438.400000000000091, -5.588000000000000078 ) ) ;
#202 = DIRECTION ( 'NONE',  ( 1.000000000000000000, 0.000000000000000000, 0.000000000000000000 ) ) ;
ENDSEC;
END-ISO-10303-21;
