ISO-10303-21;
HEADER;
FILE_DESCRIPTION (( 'STEP AP214' ),
    '1' );
FILE_NAME ('M6 Bright Zinc Washer(00HSW-3407-001-00).STEP',
    '2023-09-08T15:06:31',
    ( '' ),
    ( '' ),
    'SwSTEP 2.0',
    'SolidWorks 2020',
    '' );
FILE_SCHEMA (( 'AUTOMOTIVE_DESIGN' ));
ENDSEC;

DATA;
#1 = DIRECTION ( 'NONE',  ( 0.000000000000000000, -0.000000000000000000, 1.000000000000000000 ) ) ;
#2 = ORIENTED_EDGE ( 'NONE', *, *, #205, .T. ) ;
#3 = ORIENTED_EDGE ( 'NONE', *, *, #186, .T. ) ;
#4 = AXIS2_PLACEMENT_3D ( 'NONE', #27, #97, #113 ) ;
#5 = PRODUCT_DEFINITION ( 'UNKNOWN', '', #105, #202 ) ;
#6 = CYLINDRICAL_SURFACE ( 'NONE', #55, 5.500000000000000000 ) ;
#7 = DIRECTION ( 'NONE',  ( -0.000000000000000000, -1.000000000000000000, -0.000000000000000000 ) ) ;
#8 = PRESENTATION_LAYER_ASSIGNMENT (  '', '', ( #101 ) ) ;
#9 = AXIS2_PLACEMENT_3D ( 'NONE', #66, #206, #119 ) ;
#10 = EDGE_LOOP ( 'NONE', ( #89, #2 ) ) ;
#11 = ORIENTED_EDGE ( 'NONE', *, *, #99, .F. ) ;
#12 = PLANE ( 'NONE',  #90 ) ;
#13 = DIRECTION ( 'NONE',  ( 0.000000000000000000, 1.000000000000000000, 0.000000000000000000 ) ) ;
#14 = ORIENTED_EDGE ( 'NONE', *, *, #156, .F. ) ;
#15 = CIRCLE ( 'NONE', #138, 5.500000000000000000 ) ;
#16 = ADVANCED_FACE ( 'NONE', ( #115 ), #29, .T. ) ;
#17 = MECHANICAL_DESIGN_GEOMETRIC_PRESENTATION_REPRESENTATION (  '', ( #180 ), #96 ) ;
#18 = CARTESIAN_POINT ( 'NONE',  ( 0.000000000000000000, 1.399999999999999911, 0.000000000000000000 ) ) ;
#19 = CARTESIAN_POINT ( 'NONE',  ( 6.735557395310442023E-16, 0.000000000000000000, 5.500000000000000000 ) ) ;
#20 =( LENGTH_UNIT ( ) NAMED_UNIT ( * ) SI_UNIT ( .MILLI., .METRE. ) );
#21 = ORIENTED_EDGE ( 'NONE', *, *, #205, .F. ) ;
#22 = ORIENTED_EDGE ( 'NONE', *, *, #116, .F. ) ;
#23 = SURFACE_SIDE_STYLE ('',( #56 ) ) ;
#24 = ORIENTED_EDGE ( 'NONE', *, *, #116, .T. ) ;
#25 = EDGE_LOOP ( 'NONE', ( #14, #198, #24, #80 ) ) ;
#26 = AXIS2_PLACEMENT_3D ( 'NONE', #48, #92, #81 ) ;
#27 = CARTESIAN_POINT ( 'NONE',  ( 0.000000000000000000, 1.399999999999999911, 0.000000000000000000 ) ) ;
#28 = PLANE ( 'NONE',  #54 ) ;
#29 = CYLINDRICAL_SURFACE ( 'NONE', #4, 5.500000000000000000 ) ;
#30 = CARTESIAN_POINT ( 'NONE',  ( 0.000000000000000000, 1.399999999999999911, 0.000000000000000000 ) ) ;
#31 = ORIENTED_EDGE ( 'NONE', *, *, #195, .T. ) ;
#32 = DIRECTION ( 'NONE',  ( -0.000000000000000000, -1.000000000000000000, -0.000000000000000000 ) ) ;
#33 = MECHANICAL_DESIGN_GEOMETRIC_PRESENTATION_REPRESENTATION (  '', ( #101 ), #112 ) ;
#34 = CARTESIAN_POINT ( 'NONE',  ( 0.000000000000000000, 1.399999999999999911, 0.000000000000000000 ) ) ;
#35 = FILL_AREA_STYLE ('',( #150 ) ) ;
#36 = AXIS2_PLACEMENT_3D ( 'NONE', #18, #148, #84 ) ;
#37 = CARTESIAN_POINT ( 'NONE',  ( 0.000000000000000000, 0.000000000000000000, 0.000000000000000000 ) ) ;
#38 = CIRCLE ( 'NONE', #136, 3.200000000000000178 ) ;
#39 = ORIENTED_EDGE ( 'NONE', *, *, #67, .F. ) ;
#40 = EDGE_CURVE ( 'NONE', #199, #74, #128, .T. ) ;
#41 = SURFACE_STYLE_USAGE ( .BOTH. , #23 ) ;
#42 = EDGE_LOOP ( 'NONE', ( #59, #39 ) ) ;
#43 = AXIS2_PLACEMENT_3D ( 'NONE', #60, #62, #129 ) ;
#44 = EDGE_LOOP ( 'NONE', ( #78, #212, #125, #210 ) ) ;
#45 = EDGE_CURVE ( 'NONE', #74, #190, #214, .T. ) ;
#46 = FACE_BOUND ( 'NONE', #175, .T. ) ;
#47 = CARTESIAN_POINT ( 'NONE',  ( 0.000000000000000000, 1.399999999999999911, -5.500000000000000000 ) ) ;
#48 = CARTESIAN_POINT ( 'NONE',  ( 0.000000000000000000, 1.399999999999999911, 0.000000000000000000 ) ) ;
#49 = ADVANCED_BREP_SHAPE_REPRESENTATION ( 'M6 Bright Zinc Washer(00HSW-3407-001-00)', ( #152, #134 ), #139 ) ;
#50 = EDGE_LOOP ( 'NONE', ( #31, #167 ) ) ;
#51 = CARTESIAN_POINT ( 'NONE',  ( 0.000000000000000000, 1.399999999999999911, -3.200000000000000178 ) ) ;
#52 = CARTESIAN_POINT ( 'NONE',  ( 0.000000000000000000, 0.000000000000000000, -3.200000000000000178 ) ) ;
#53 = CARTESIAN_POINT ( 'NONE',  ( 3.918869757271530460E-16, 0.000000000000000000, 3.200000000000000178 ) ) ;
#54 = AXIS2_PLACEMENT_3D ( 'NONE', #94, #163, #1 ) ;
#55 = AXIS2_PLACEMENT_3D ( 'NONE', #70, #32, #100 ) ;
#56 = SURFACE_STYLE_FILL_AREA ( #142 ) ;
#57 = COLOUR_RGB ( '',1.000000000000000000, 1.000000000000000000, 1.000000000000000000 ) ;
#58 = DIRECTION ( 'NONE',  ( 1.000000000000000000, 0.000000000000000000, 0.000000000000000000 ) ) ;
#59 = ORIENTED_EDGE ( 'NONE', *, *, #176, .F. ) ;
#60 = CARTESIAN_POINT ( 'NONE',  ( 0.000000000000000000, 1.399999999999999911, 0.000000000000000000 ) ) ;
#61 = FACE_OUTER_BOUND ( 'NONE', #44, .T. ) ;
#62 = DIRECTION ( 'NONE',  ( -0.000000000000000000, -1.000000000000000000, -0.000000000000000000 ) ) ;
#63 = AXIS2_PLACEMENT_3D ( 'NONE', #133, #13, #196 ) ;
#64 = DIRECTION ( 'NONE',  ( 0.000000000000000000, 1.000000000000000000, 0.000000000000000000 ) ) ;
#65 = UNCERTAINTY_MEASURE_WITH_UNIT (LENGTH_MEASURE( 1.000000000000000082E-05 ), #173, 'distance_accuracy_value', 'NONE');
#66 = CARTESIAN_POINT ( 'NONE',  ( 0.000000000000000000, 0.000000000000000000, 0.000000000000000000 ) ) ;
#67 = EDGE_CURVE ( 'NONE', #157, #98, #15, .T. ) ;
#68 = DIRECTION ( 'NONE',  ( 0.000000000000000000, -0.000000000000000000, 1.000000000000000000 ) ) ;
#69 =( LENGTH_UNIT ( ) NAMED_UNIT ( * ) SI_UNIT ( .MILLI., .METRE. ) );
#70 = CARTESIAN_POINT ( 'NONE',  ( 0.000000000000000000, 1.399999999999999911, 0.000000000000000000 ) ) ;
#71 = AXIS2_PLACEMENT_3D ( 'NONE', #120, #7, #85 ) ;
#72 = PRESENTATION_STYLE_ASSIGNMENT (( #41 ) ) ;
#73 = ORIENTED_EDGE ( 'NONE', *, *, #186, .F. ) ;
#74 = VERTEX_POINT ( 'NONE', #178 ) ;
#75 = EDGE_CURVE ( 'NONE', #79, #82, #122, .T. ) ;
#76 = ORIENTED_EDGE ( 'NONE', *, *, #45, .F. ) ;
#77 = AXIS2_PLACEMENT_3D ( 'NONE', #34, #64, #153 ) ;
#78 = ORIENTED_EDGE ( 'NONE', *, *, #40, .T. ) ;
#79 = VERTEX_POINT ( 'NONE', #179 ) ;
#80 = ORIENTED_EDGE ( 'NONE', *, *, #176, .T. ) ;
#81 = DIRECTION ( 'NONE',  ( 0.000000000000000000, 0.000000000000000000, 1.000000000000000000 ) ) ;
#82 = VERTEX_POINT ( 'NONE', #182 ) ;
#83 = ADVANCED_FACE ( 'NONE', ( #61 ), #162, .F. ) ;
#84 = DIRECTION ( 'NONE',  ( 0.000000000000000000, 0.000000000000000000, 1.000000000000000000 ) ) ;
#85 = DIRECTION ( 'NONE',  ( 0.000000000000000000, 0.000000000000000000, -1.000000000000000000 ) ) ;
#86 = SHAPE_DEFINITION_REPRESENTATION ( #197, #49 ) ;
#87 = CARTESIAN_POINT ( 'NONE',  ( 0.000000000000000000, 0.000000000000000000, 0.000000000000000000 ) ) ;
#88 =( NAMED_UNIT ( * ) SI_UNIT ( $, .STERADIAN. ) SOLID_ANGLE_UNIT ( ) );
#89 = ORIENTED_EDGE ( 'NONE', *, *, #75, .T. ) ;
#90 = AXIS2_PLACEMENT_3D ( 'NONE', #132, #166, #68 ) ;
#91 = ORIENTED_EDGE ( 'NONE', *, *, #67, .T. ) ;
#92 = DIRECTION ( 'NONE',  ( 0.000000000000000000, 1.000000000000000000, 0.000000000000000000 ) ) ;
#93 = PRODUCT_RELATED_PRODUCT_CATEGORY ( 'part', '', ( #165 ) ) ;
#94 = CARTESIAN_POINT ( 'NONE',  ( 0.000000000000000000, 1.399999999999999911, 0.000000000000000000 ) ) ;
#95 = CARTESIAN_POINT ( 'NONE',  ( 3.918869757271530460E-16, 1.399999999999999911, 3.200000000000000178 ) ) ;
#96 =( GEOMETRIC_REPRESENTATION_CONTEXT ( 3 ) GLOBAL_UNCERTAINTY_ASSIGNED_CONTEXT ( ( #65 ) ) GLOBAL_UNIT_ASSIGNED_CONTEXT ( ( #173, #191, #88 ) ) REPRESENTATION_CONTEXT ( 'NONE', 'WORKASPACE' ) );
#97 = DIRECTION ( 'NONE',  ( -0.000000000000000000, -1.000000000000000000, -0.000000000000000000 ) ) ;
#98 = VERTEX_POINT ( 'NONE', #145 ) ;
#99 = EDGE_CURVE ( 'NONE', #190, #147, #193, .T. ) ;
#100 = DIRECTION ( 'NONE',  ( 0.000000000000000000, 0.000000000000000000, -1.000000000000000000 ) ) ;
#101 = STYLED_ITEM ( 'NONE', ( #203 ), #152 ) ;
#102 = ADVANCED_FACE ( 'NONE', ( #194, #46 ), #28, .T. ) ;
#103 = CIRCLE ( 'NONE', #9, 5.500000000000000000 ) ;
#104 = LINE ( 'NONE', #155, #170 ) ;
#105 = PRODUCT_DEFINITION_FORMATION_WITH_SPECIFIED_SOURCE ( 'ANY', '', #165, .NOT_KNOWN. ) ;
#106 = DIRECTION ( 'NONE',  ( 0.000000000000000000, 1.000000000000000000, 0.000000000000000000 ) ) ;
#107 = PRODUCT_CONTEXT ( 'NONE', #154, 'mechanical' ) ;
#108 = ORIENTED_EDGE ( 'NONE', *, *, #40, .F. ) ;
#109 = DIRECTION ( 'NONE',  ( 0.000000000000000000, 0.000000000000000000, 1.000000000000000000 ) ) ;
#110 = ORIENTED_EDGE ( 'NONE', *, *, #156, .T. ) ;
#111 = PRESENTATION_LAYER_ASSIGNMENT (  '', '', ( #180 ) ) ;
#112 =( GEOMETRIC_REPRESENTATION_CONTEXT ( 3 ) GLOBAL_UNCERTAINTY_ASSIGNED_CONTEXT ( ( #149 ) ) GLOBAL_UNIT_ASSIGNED_CONTEXT ( ( #20, #189, #187 ) ) REPRESENTATION_CONTEXT ( 'NONE', 'WORKASPACE' ) );
#113 = DIRECTION ( 'NONE',  ( 0.000000000000000000, 0.000000000000000000, -1.000000000000000000 ) ) ;
#114 = FACE_OUTER_BOUND ( 'NONE', #42, .T. ) ;
#115 = FACE_OUTER_BOUND ( 'NONE', #127, .T. ) ;
#116 = EDGE_CURVE ( 'NONE', #79, #98, #130, .T. ) ;
#117 = FACE_OUTER_BOUND ( 'NONE', #25, .T. ) ;
#118 = UNCERTAINTY_MEASURE_WITH_UNIT (LENGTH_MEASURE( 1.000000000000000082E-05 ), #69, 'distance_accuracy_value', 'NONE');
#119 = DIRECTION ( 'NONE',  ( 0.000000000000000000, 0.000000000000000000, 1.000000000000000000 ) ) ;
#120 = CARTESIAN_POINT ( 'NONE',  ( 0.000000000000000000, 1.399999999999999911, 0.000000000000000000 ) ) ;
#121 = SURFACE_STYLE_FILL_AREA ( #35 ) ;
#122 = CIRCLE ( 'NONE', #26, 5.500000000000000000 ) ;
#123 = APPLICATION_PROTOCOL_DEFINITION ( 'draft international standard', 'automotive_design', 1998, #174 ) ;
#124 = ADVANCED_FACE ( 'NONE', ( #114, #164 ), #12, .F. ) ;
#125 = ORIENTED_EDGE ( 'NONE', *, *, #195, .F. ) ;
#126 = FILL_AREA_STYLE_COLOUR ( '', #57 ) ;
#127 = EDGE_LOOP ( 'NONE', ( #21, #110, #91, #22 ) ) ;
#128 = CIRCLE ( 'NONE', #177, 3.200000000000000178 ) ;
#129 = DIRECTION ( 'NONE',  ( 0.000000000000000000, 0.000000000000000000, -1.000000000000000000 ) ) ;
#130 = LINE ( 'NONE', #47, #208 ) ;
#131 = CIRCLE ( 'NONE', #36, 3.200000000000000178 ) ;
#132 = CARTESIAN_POINT ( 'NONE',  ( 0.000000000000000000, 0.000000000000000000, 0.000000000000000000 ) ) ;
#133 = CARTESIAN_POINT ( 'NONE',  ( 0.000000000000000000, 0.000000000000000000, 0.000000000000000000 ) ) ;
#134 = AXIS2_PLACEMENT_3D ( 'NONE', #87, #209, #58 ) ;
#135 = LINE ( 'NONE', #51, #161 ) ;
#136 = AXIS2_PLACEMENT_3D ( 'NONE', #37, #106, #151 ) ;
#137 =( NAMED_UNIT ( * ) SI_UNIT ( $, .STERADIAN. ) SOLID_ANGLE_UNIT ( ) );
#138 = AXIS2_PLACEMENT_3D ( 'NONE', #192, #144, #109 ) ;
#139 =( GEOMETRIC_REPRESENTATION_CONTEXT ( 3 ) GLOBAL_UNCERTAINTY_ASSIGNED_CONTEXT ( ( #118 ) ) GLOBAL_UNIT_ASSIGNED_CONTEXT ( ( #69, #169, #137 ) ) REPRESENTATION_CONTEXT ( 'NONE', 'WORKASPACE' ) );
#140 = ORIENTED_EDGE ( 'NONE', *, *, #201, .T. ) ;
#141 = ADVANCED_FACE ( 'NONE', ( #184 ), #204, .F. ) ;
#142 = FILL_AREA_STYLE ('',( #126 ) ) ;
#143 = CIRCLE ( 'NONE', #77, 5.500000000000000000 ) ;
#144 = DIRECTION ( 'NONE',  ( 0.000000000000000000, 1.000000000000000000, 0.000000000000000000 ) ) ;
#145 = CARTESIAN_POINT ( 'NONE',  ( 0.000000000000000000, 0.000000000000000000, -5.500000000000000000 ) ) ;
#146 = DIRECTION ( 'NONE',  ( 0.000000000000000000, 0.000000000000000000, 1.000000000000000000 ) ) ;
#147 = VERTEX_POINT ( 'NONE', #52 ) ;
#148 = DIRECTION ( 'NONE',  ( 0.000000000000000000, 1.000000000000000000, 0.000000000000000000 ) ) ;
#149 = UNCERTAINTY_MEASURE_WITH_UNIT (LENGTH_MEASURE( 1.000000000000000082E-05 ), #20, 'distance_accuracy_value', 'NONE');
#150 = FILL_AREA_STYLE_COLOUR ( '', #168 ) ;
#151 = DIRECTION ( 'NONE',  ( 0.000000000000000000, 0.000000000000000000, 1.000000000000000000 ) ) ;
#152 = MANIFOLD_SOLID_BREP ( 'Boss-Extrude1', #160 ) ;
#153 = DIRECTION ( 'NONE',  ( 0.000000000000000000, 0.000000000000000000, 1.000000000000000000 ) ) ;
#154 = APPLICATION_CONTEXT ( 'automotive_design' ) ;
#155 = CARTESIAN_POINT ( 'NONE',  ( 6.735557395310442023E-16, 1.399999999999999911, 5.500000000000000000 ) ) ;
#156 = EDGE_CURVE ( 'NONE', #82, #157, #104, .T. ) ;
#157 = VERTEX_POINT ( 'NONE', #19 ) ;
#158 = APPLICATION_PROTOCOL_DEFINITION ( 'draft international standard', 'automotive_design', 1998, #154 ) ;
#159 = EDGE_LOOP ( 'NONE', ( #76, #3, #140, #11 ) ) ;
#160 = CLOSED_SHELL ( 'NONE', ( #83, #16, #102, #124, #211, #141 ) ) ;
#161 = VECTOR ( 'NONE', #185, 1000.000000000000000 ) ;
#162 = CYLINDRICAL_SURFACE ( 'NONE', #43, 3.200000000000000178 ) ;
#163 = DIRECTION ( 'NONE',  ( 0.000000000000000000, 1.000000000000000000, 0.000000000000000000 ) ) ;
#164 = FACE_BOUND ( 'NONE', #50, .T. ) ;
#165 = PRODUCT ( 'M6 Bright Zinc Washer(00HSW-3407-001-00)', 'M6 Bright Zinc Washer(00HSW-3407-001-00)', '', ( #107 ) ) ;
#166 = DIRECTION ( 'NONE',  ( 0.000000000000000000, 1.000000000000000000, 0.000000000000000000 ) ) ;
#167 = ORIENTED_EDGE ( 'NONE', *, *, #99, .T. ) ;
#168 = COLOUR_RGB ( '',1.000000000000000000, 1.000000000000000000, 1.000000000000000000 ) ;
#169 =( NAMED_UNIT ( * ) PLANE_ANGLE_UNIT ( ) SI_UNIT ( $, .RADIAN. ) );
#170 = VECTOR ( 'NONE', #171, 1000.000000000000000 ) ;
#171 = DIRECTION ( 'NONE',  ( -0.000000000000000000, -1.000000000000000000, -0.000000000000000000 ) ) ;
#172 = CARTESIAN_POINT ( 'NONE',  ( 0.000000000000000000, 1.399999999999999911, -3.200000000000000178 ) ) ;
#173 =( LENGTH_UNIT ( ) NAMED_UNIT ( * ) SI_UNIT ( .MILLI., .METRE. ) );
#174 = APPLICATION_CONTEXT ( 'automotive_design' ) ;
#175 = EDGE_LOOP ( 'NONE', ( #108, #73 ) ) ;
#176 = EDGE_CURVE ( 'NONE', #98, #157, #103, .T. ) ;
#177 = AXIS2_PLACEMENT_3D ( 'NONE', #30, #183, #146 ) ;
#178 = CARTESIAN_POINT ( 'NONE',  ( 3.918869757271530460E-16, 1.399999999999999911, 3.200000000000000178 ) ) ;
#179 = CARTESIAN_POINT ( 'NONE',  ( 0.000000000000000000, 1.399999999999999911, -5.500000000000000000 ) ) ;
#180 = STYLED_ITEM ( 'NONE', ( #72 ), #49 ) ;
#181 = DIRECTION ( 'NONE',  ( -0.000000000000000000, -1.000000000000000000, -0.000000000000000000 ) ) ;
#182 = CARTESIAN_POINT ( 'NONE',  ( 6.735557395310442023E-16, 1.399999999999999911, 5.500000000000000000 ) ) ;
#183 = DIRECTION ( 'NONE',  ( 0.000000000000000000, 1.000000000000000000, 0.000000000000000000 ) ) ;
#184 = FACE_OUTER_BOUND ( 'NONE', #159, .T. ) ;
#185 = DIRECTION ( 'NONE',  ( -0.000000000000000000, -1.000000000000000000, -0.000000000000000000 ) ) ;
#186 = EDGE_CURVE ( 'NONE', #74, #199, #131, .T. ) ;
#187 =( NAMED_UNIT ( * ) SI_UNIT ( $, .STERADIAN. ) SOLID_ANGLE_UNIT ( ) );
#188 = VECTOR ( 'NONE', #213, 1000.000000000000000 ) ;
#189 =( NAMED_UNIT ( * ) PLANE_ANGLE_UNIT ( ) SI_UNIT ( $, .RADIAN. ) );
#190 = VERTEX_POINT ( 'NONE', #53 ) ;
#191 =( NAMED_UNIT ( * ) PLANE_ANGLE_UNIT ( ) SI_UNIT ( $, .RADIAN. ) );
#192 = CARTESIAN_POINT ( 'NONE',  ( 0.000000000000000000, 0.000000000000000000, 0.000000000000000000 ) ) ;
#193 = CIRCLE ( 'NONE', #63, 3.200000000000000178 ) ;
#194 = FACE_OUTER_BOUND ( 'NONE', #10, .T. ) ;
#195 = EDGE_CURVE ( 'NONE', #147, #190, #38, .T. ) ;
#196 = DIRECTION ( 'NONE',  ( 0.000000000000000000, 0.000000000000000000, 1.000000000000000000 ) ) ;
#197 = PRODUCT_DEFINITION_SHAPE ( 'NONE', 'NONE',  #5 ) ;
#198 = ORIENTED_EDGE ( 'NONE', *, *, #75, .F. ) ;
#199 = VERTEX_POINT ( 'NONE', #172 ) ;
#200 = SURFACE_SIDE_STYLE ('',( #121 ) ) ;
#201 = EDGE_CURVE ( 'NONE', #199, #147, #135, .T. ) ;
#202 = PRODUCT_DEFINITION_CONTEXT ( 'detailed design', #174, 'design' ) ;
#203 = PRESENTATION_STYLE_ASSIGNMENT (( #207 ) ) ;
#204 = CYLINDRICAL_SURFACE ( 'NONE', #71, 3.200000000000000178 ) ;
#205 = EDGE_CURVE ( 'NONE', #82, #79, #143, .T. ) ;
#206 = DIRECTION ( 'NONE',  ( 0.000000000000000000, 1.000000000000000000, 0.000000000000000000 ) ) ;
#207 = SURFACE_STYLE_USAGE ( .BOTH. , #200 ) ;
#208 = VECTOR ( 'NONE', #181, 1000.000000000000000 ) ;
#209 = DIRECTION ( 'NONE',  ( 0.000000000000000000, 0.000000000000000000, 1.000000000000000000 ) ) ;
#210 = ORIENTED_EDGE ( 'NONE', *, *, #201, .F. ) ;
#211 = ADVANCED_FACE ( 'NONE', ( #117 ), #6, .T. ) ;
#212 = ORIENTED_EDGE ( 'NONE', *, *, #45, .T. ) ;
#213 = DIRECTION ( 'NONE',  ( -0.000000000000000000, -1.000000000000000000, -0.000000000000000000 ) ) ;
#214 = LINE ( 'NONE', #95, #188 ) ;
ENDSEC;
END-ISO-10303-21;
