ISO-10303-21;
HEADER;
FILE_DESCRIPTION (( 'STEP AP214' ),
    '1' );
FILE_NAME ('M8 Bright Zinc Washer(00HSW-3507-001-00).STEP',
    '2023-09-08T15:05:00',
    ( '' ),
    ( '' ),
    'SwSTEP 2.0',
    'SolidWorks 2020',
    '' );
FILE_SCHEMA (( 'AUTOMOTIVE_DESIGN' ));
ENDSEC;

DATA;
#1 = VERTEX_POINT ( 'NONE', #206 ) ;
#2 = VERTEX_POINT ( 'NONE', #16 ) ;
#3 = MANIFOLD_SOLID_BREP ( 'Boss-Extrude1', #34 ) ;
#4 = CARTESIAN_POINT ( 'NONE',  ( 0.000000000000000000, 1.399999999999999911, 0.000000000000000000 ) ) ;
#5 = FACE_OUTER_BOUND ( 'NONE', #203, .T. ) ;
#6 = DIRECTION ( 'NONE',  ( -0.000000000000000000, -1.000000000000000000, -0.000000000000000000 ) ) ;
#7 = DIRECTION ( 'NONE',  ( 0.000000000000000000, 0.000000000000000000, 1.000000000000000000 ) ) ;
#8 = STYLED_ITEM ( 'NONE', ( #86 ), #67 ) ;
#9 =( NAMED_UNIT ( * ) SI_UNIT ( $, .STERADIAN. ) SOLID_ANGLE_UNIT ( ) );
#10 = DIRECTION ( 'NONE',  ( -0.000000000000000000, -1.000000000000000000, -0.000000000000000000 ) ) ;
#11 = AXIS2_PLACEMENT_3D ( 'NONE', #15, #52, #151 ) ;
#12 = VECTOR ( 'NONE', #199, 1000.000000000000000 ) ;
#13 = FILL_AREA_STYLE_COLOUR ( '', #50 ) ;
#14 = CIRCLE ( 'NONE', #58, 4.200000000000000178 ) ;
#15 = CARTESIAN_POINT ( 'NONE',  ( 0.000000000000000000, 1.399999999999999911, 0.000000000000000000 ) ) ;
#16 = CARTESIAN_POINT ( 'NONE',  ( 9.184850993605147944E-16, 1.399999999999999911, 7.500000000000000000 ) ) ;
#17 = SURFACE_STYLE_FILL_AREA ( #31 ) ;
#18 = PRESENTATION_STYLE_ASSIGNMENT (( #20 ) ) ;
#19 = VECTOR ( 'NONE', #6, 1000.000000000000000 ) ;
#20 = SURFACE_STYLE_USAGE ( .BOTH. , #54 ) ;
#21 = CYLINDRICAL_SURFACE ( 'NONE', #211, 7.500000000000000000 ) ;
#22 = FACE_OUTER_BOUND ( 'NONE', #170, .T. ) ;
#23 = CARTESIAN_POINT ( 'NONE',  ( 9.184850993605147944E-16, 1.399999999999999911, 7.500000000000000000 ) ) ;
#24 = DIRECTION ( 'NONE',  ( -0.000000000000000000, -1.000000000000000000, -0.000000000000000000 ) ) ;
#25 = PLANE ( 'NONE',  #41 ) ;
#26 = AXIS2_PLACEMENT_3D ( 'NONE', #45, #99, #27 ) ;
#27 = DIRECTION ( 'NONE',  ( 1.000000000000000000, 0.000000000000000000, 0.000000000000000000 ) ) ;
#28 = ORIENTED_EDGE ( 'NONE', *, *, #156, .F. ) ;
#29 = ORIENTED_EDGE ( 'NONE', *, *, #123, .T. ) ;
#30 = ORIENTED_EDGE ( 'NONE', *, *, #163, .F. ) ;
#31 = FILL_AREA_STYLE ('',( #193 ) ) ;
#32 = ORIENTED_EDGE ( 'NONE', *, *, #208, .T. ) ;
#33 =( NAMED_UNIT ( * ) SI_UNIT ( $, .STERADIAN. ) SOLID_ANGLE_UNIT ( ) );
#34 = CLOSED_SHELL ( 'NONE', ( #102, #202, #118, #81, #181, #133 ) ) ;
#35 = ORIENTED_EDGE ( 'NONE', *, *, #51, .F. ) ;
#36 = EDGE_CURVE ( 'NONE', #2, #153, #113, .T. ) ;
#37 = DIRECTION ( 'NONE',  ( 0.000000000000000000, 0.000000000000000000, -1.000000000000000000 ) ) ;
#38 = CARTESIAN_POINT ( 'NONE',  ( 0.000000000000000000, 0.000000000000000000, 0.000000000000000000 ) ) ;
#39 = CARTESIAN_POINT ( 'NONE',  ( 0.000000000000000000, 0.000000000000000000, -4.200000000000000178 ) ) ;
#40 = CIRCLE ( 'NONE', #150, 4.200000000000000178 ) ;
#41 = AXIS2_PLACEMENT_3D ( 'NONE', #84, #94, #146 ) ;
#42 =( GEOMETRIC_REPRESENTATION_CONTEXT ( 3 ) GLOBAL_UNCERTAINTY_ASSIGNED_CONTEXT ( ( #145 ) ) GLOBAL_UNIT_ASSIGNED_CONTEXT ( ( #184, #46, #142 ) ) REPRESENTATION_CONTEXT ( 'NONE', 'WORKASPACE' ) );
#43 =( NAMED_UNIT ( * ) PLANE_ANGLE_UNIT ( ) SI_UNIT ( $, .RADIAN. ) );
#44 = CARTESIAN_POINT ( 'NONE',  ( 0.000000000000000000, 1.399999999999999911, 0.000000000000000000 ) ) ;
#45 = CARTESIAN_POINT ( 'NONE',  ( 0.000000000000000000, 0.000000000000000000, 0.000000000000000000 ) ) ;
#46 =( NAMED_UNIT ( * ) PLANE_ANGLE_UNIT ( ) SI_UNIT ( $, .RADIAN. ) );
#47 = SURFACE_SIDE_STYLE ('',( #49 ) ) ;
#48 = UNCERTAINTY_MEASURE_WITH_UNIT (LENGTH_MEASURE( 1.000000000000000082E-05 ), #63, 'distance_accuracy_value', 'NONE');
#49 = SURFACE_STYLE_FILL_AREA ( #72 ) ;
#50 = COLOUR_RGB ( '',1.000000000000000000, 1.000000000000000000, 1.000000000000000000 ) ;
#51 = EDGE_CURVE ( 'NONE', #185, #1, #40, .T. ) ;
#52 = DIRECTION ( 'NONE',  ( 0.000000000000000000, 1.000000000000000000, 0.000000000000000000 ) ) ;
#53 =( GEOMETRIC_REPRESENTATION_CONTEXT ( 3 ) GLOBAL_UNCERTAINTY_ASSIGNED_CONTEXT ( ( #100 ) ) GLOBAL_UNIT_ASSIGNED_CONTEXT ( ( #110, #155, #33 ) ) REPRESENTATION_CONTEXT ( 'NONE', 'WORKASPACE' ) );
#54 = SURFACE_SIDE_STYLE ('',( #17 ) ) ;
#55 = ORIENTED_EDGE ( 'NONE', *, *, #163, .T. ) ;
#56 = ORIENTED_EDGE ( 'NONE', *, *, #123, .F. ) ;
#57 = ORIENTED_EDGE ( 'NONE', *, *, #91, .F. ) ;
#58 = AXIS2_PLACEMENT_3D ( 'NONE', #121, #190, #107 ) ;
#59 = DIRECTION ( 'NONE',  ( 0.000000000000000000, 1.000000000000000000, 0.000000000000000000 ) ) ;
#60 = CARTESIAN_POINT ( 'NONE',  ( 0.000000000000000000, 0.000000000000000000, -7.500000000000000000 ) ) ;
#61 = PLANE ( 'NONE',  #200 ) ;
#62 = AXIS2_PLACEMENT_3D ( 'NONE', #38, #59, #7 ) ;
#63 =( LENGTH_UNIT ( ) NAMED_UNIT ( * ) SI_UNIT ( .MILLI., .METRE. ) );
#64 = DIRECTION ( 'NONE',  ( -0.000000000000000000, -1.000000000000000000, -0.000000000000000000 ) ) ;
#65 = DIRECTION ( 'NONE',  ( 0.000000000000000000, 0.000000000000000000, -1.000000000000000000 ) ) ;
#66 = EDGE_CURVE ( 'NONE', #187, #89, #14, .T. ) ;
#67 = ADVANCED_BREP_SHAPE_REPRESENTATION ( 'M8 Bright Zinc Washer(00HSW-3507-001-00)', ( #3, #26 ), #42 ) ;
#68 = ORIENTED_EDGE ( 'NONE', *, *, #137, .F. ) ;
#69 = MECHANICAL_DESIGN_GEOMETRIC_PRESENTATION_REPRESENTATION (  '', ( #77 ), #53 ) ;
#70 = AXIS2_PLACEMENT_3D ( 'NONE', #158, #138, #37 ) ;
#71 = CIRCLE ( 'NONE', #191, 7.500000000000000000 ) ;
#72 = FILL_AREA_STYLE ('',( #13 ) ) ;
#73 = EDGE_CURVE ( 'NONE', #205, #189, #183, .T. ) ;
#74 = DIRECTION ( 'NONE',  ( 0.000000000000000000, 0.000000000000000000, 1.000000000000000000 ) ) ;
#75 = ORIENTED_EDGE ( 'NONE', *, *, #36, .F. ) ;
#76 = ORIENTED_EDGE ( 'NONE', *, *, #116, .F. ) ;
#77 = STYLED_ITEM ( 'NONE', ( #18 ), #3 ) ;
#78 = CYLINDRICAL_SURFACE ( 'NONE', #70, 4.200000000000000178 ) ;
#79 = CIRCLE ( 'NONE', #106, 4.200000000000000178 ) ;
#80 = CARTESIAN_POINT ( 'NONE',  ( 5.143516556418883914E-16, 1.399999999999999911, 4.200000000000000178 ) ) ;
#81 = ADVANCED_FACE ( 'NONE', ( #207, #212 ), #61, .F. ) ;
#82 = FACE_BOUND ( 'NONE', #157, .T. ) ;
#83 = MECHANICAL_DESIGN_GEOMETRIC_PRESENTATION_REPRESENTATION (  '', ( #8 ), #125 ) ;
#84 = CARTESIAN_POINT ( 'NONE',  ( 0.000000000000000000, 1.399999999999999911, 0.000000000000000000 ) ) ;
#85 = CIRCLE ( 'NONE', #154, 7.500000000000000000 ) ;
#86 = PRESENTATION_STYLE_ASSIGNMENT (( #147 ) ) ;
#87 = ORIENTED_EDGE ( 'NONE', *, *, #66, .T. ) ;
#88 = DIRECTION ( 'NONE',  ( 0.000000000000000000, 1.000000000000000000, 0.000000000000000000 ) ) ;
#89 = VERTEX_POINT ( 'NONE', #97 ) ;
#90 = APPLICATION_CONTEXT ( 'automotive_design' ) ;
#91 = EDGE_CURVE ( 'NONE', #153, #2, #85, .T. ) ;
#92 = ORIENTED_EDGE ( 'NONE', *, *, #156, .T. ) ;
#93 = DIRECTION ( 'NONE',  ( 0.000000000000000000, 1.000000000000000000, 0.000000000000000000 ) ) ;
#94 = DIRECTION ( 'NONE',  ( 0.000000000000000000, 1.000000000000000000, 0.000000000000000000 ) ) ;
#95 = DIRECTION ( 'NONE',  ( 0.000000000000000000, -0.000000000000000000, 1.000000000000000000 ) ) ;
#96 = CARTESIAN_POINT ( 'NONE',  ( 0.000000000000000000, 1.399999999999999911, -4.200000000000000178 ) ) ;
#97 = CARTESIAN_POINT ( 'NONE',  ( 5.143516556418883914E-16, 0.000000000000000000, 4.200000000000000178 ) ) ;
#98 = SHAPE_DEFINITION_REPRESENTATION ( #141, #67 ) ;
#99 = DIRECTION ( 'NONE',  ( 0.000000000000000000, 0.000000000000000000, 1.000000000000000000 ) ) ;
#100 = UNCERTAINTY_MEASURE_WITH_UNIT (LENGTH_MEASURE( 1.000000000000000082E-05 ), #110, 'distance_accuracy_value', 'NONE');
#101 = ORIENTED_EDGE ( 'NONE', *, *, #120, .T. ) ;
#102 = ADVANCED_FACE ( 'NONE', ( #22 ), #78, .F. ) ;
#103 = VECTOR ( 'NONE', #165, 1000.000000000000000 ) ;
#104 = ORIENTED_EDGE ( 'NONE', *, *, #116, .T. ) ;
#105 = PRESENTATION_LAYER_ASSIGNMENT (  '', '', ( #77 ) ) ;
#106 = AXIS2_PLACEMENT_3D ( 'NONE', #176, #140, #160 ) ;
#107 = DIRECTION ( 'NONE',  ( 0.000000000000000000, 0.000000000000000000, 1.000000000000000000 ) ) ;
#108 = ORIENTED_EDGE ( 'NONE', *, *, #208, .F. ) ;
#109 = ORIENTED_EDGE ( 'NONE', *, *, #36, .T. ) ;
#110 =( LENGTH_UNIT ( ) NAMED_UNIT ( * ) SI_UNIT ( .MILLI., .METRE. ) );
#111 = DIRECTION ( 'NONE',  ( 0.000000000000000000, 1.000000000000000000, 0.000000000000000000 ) ) ;
#112 = CARTESIAN_POINT ( 'NONE',  ( 0.000000000000000000, 1.399999999999999911, -7.500000000000000000 ) ) ;
#113 = CIRCLE ( 'NONE', #11, 7.500000000000000000 ) ;
#114 = DIRECTION ( 'NONE',  ( 0.000000000000000000, 1.000000000000000000, 0.000000000000000000 ) ) ;
#115 = LINE ( 'NONE', #96, #103 ) ;
#116 = EDGE_CURVE ( 'NONE', #185, #89, #117, .T. ) ;
#117 = LINE ( 'NONE', #180, #12 ) ;
#118 = ADVANCED_FACE ( 'NONE', ( #130, #82 ), #25, .T. ) ;
#119 = AXIS2_PLACEMENT_3D ( 'NONE', #44, #10, #65 ) ;
#120 = EDGE_CURVE ( 'NONE', #89, #187, #167, .T. ) ;
#121 = CARTESIAN_POINT ( 'NONE',  ( 0.000000000000000000, 0.000000000000000000, 0.000000000000000000 ) ) ;
#122 = EDGE_LOOP ( 'NONE', ( #87, #101 ) ) ;
#123 = EDGE_CURVE ( 'NONE', #189, #205, #71, .T. ) ;
#124 = EDGE_LOOP ( 'NONE', ( #75, #32, #29, #68 ) ) ;
#125 =( GEOMETRIC_REPRESENTATION_CONTEXT ( 3 ) GLOBAL_UNCERTAINTY_ASSIGNED_CONTEXT ( ( #48 ) ) GLOBAL_UNIT_ASSIGNED_CONTEXT ( ( #63, #43, #9 ) ) REPRESENTATION_CONTEXT ( 'NONE', 'WORKASPACE' ) );
#126 = ORIENTED_EDGE ( 'NONE', *, *, #73, .T. ) ;
#127 = PRODUCT_RELATED_PRODUCT_CATEGORY ( 'part', '', ( #161 ) ) ;
#128 = DIRECTION ( 'NONE',  ( 0.000000000000000000, 0.000000000000000000, 1.000000000000000000 ) ) ;
#129 = DIRECTION ( 'NONE',  ( 0.000000000000000000, 0.000000000000000000, -1.000000000000000000 ) ) ;
#130 = FACE_OUTER_BOUND ( 'NONE', #174, .T. ) ;
#131 = CYLINDRICAL_SURFACE ( 'NONE', #119, 7.500000000000000000 ) ;
#132 = ORIENTED_EDGE ( 'NONE', *, *, #73, .F. ) ;
#133 = ADVANCED_FACE ( 'NONE', ( #178 ), #213, .F. ) ;
#134 = ORIENTED_EDGE ( 'NONE', *, *, #137, .T. ) ;
#135 = ORIENTED_EDGE ( 'NONE', *, *, #120, .F. ) ;
#136 = ORIENTED_EDGE ( 'NONE', *, *, #91, .T. ) ;
#137 = EDGE_CURVE ( 'NONE', #153, #205, #196, .T. ) ;
#138 = DIRECTION ( 'NONE',  ( -0.000000000000000000, -1.000000000000000000, -0.000000000000000000 ) ) ;
#139 = DIRECTION ( 'NONE',  ( -0.000000000000000000, -1.000000000000000000, -0.000000000000000000 ) ) ;
#140 = DIRECTION ( 'NONE',  ( 0.000000000000000000, 1.000000000000000000, 0.000000000000000000 ) ) ;
#141 = PRODUCT_DEFINITION_SHAPE ( 'NONE', 'NONE',  #172 ) ;
#142 =( NAMED_UNIT ( * ) SI_UNIT ( $, .STERADIAN. ) SOLID_ANGLE_UNIT ( ) );
#143 = COLOUR_RGB ( '',1.000000000000000000, 1.000000000000000000, 1.000000000000000000 ) ;
#144 = CARTESIAN_POINT ( 'NONE',  ( 0.000000000000000000, 0.000000000000000000, 0.000000000000000000 ) ) ;
#145 = UNCERTAINTY_MEASURE_WITH_UNIT (LENGTH_MEASURE( 1.000000000000000082E-05 ), #184, 'distance_accuracy_value', 'NONE');
#146 = DIRECTION ( 'NONE',  ( 0.000000000000000000, -0.000000000000000000, 1.000000000000000000 ) ) ;
#147 = SURFACE_STYLE_USAGE ( .BOTH. , #47 ) ;
#148 = AXIS2_PLACEMENT_3D ( 'NONE', #169, #88, #152 ) ;
#149 = APPLICATION_CONTEXT ( 'automotive_design' ) ;
#150 = AXIS2_PLACEMENT_3D ( 'NONE', #192, #214, #74 ) ;
#151 = DIRECTION ( 'NONE',  ( 0.000000000000000000, 0.000000000000000000, 1.000000000000000000 ) ) ;
#152 = DIRECTION ( 'NONE',  ( 0.000000000000000000, 0.000000000000000000, 1.000000000000000000 ) ) ;
#153 = VERTEX_POINT ( 'NONE', #210 ) ;
#154 = AXIS2_PLACEMENT_3D ( 'NONE', #162, #93, #195 ) ;
#155 =( NAMED_UNIT ( * ) PLANE_ANGLE_UNIT ( ) SI_UNIT ( $, .RADIAN. ) );
#156 = EDGE_CURVE ( 'NONE', #1, #185, #79, .T. ) ;
#157 = EDGE_LOOP ( 'NONE', ( #28, #35 ) ) ;
#158 = CARTESIAN_POINT ( 'NONE',  ( 0.000000000000000000, 1.399999999999999911, 0.000000000000000000 ) ) ;
#159 = PRODUCT_DEFINITION_FORMATION_WITH_SPECIFIED_SOURCE ( 'ANY', '', #161, .NOT_KNOWN. ) ;
#160 = DIRECTION ( 'NONE',  ( 0.000000000000000000, 0.000000000000000000, 1.000000000000000000 ) ) ;
#161 = PRODUCT ( 'M8 Bright Zinc Washer(00HSW-3507-001-00)', 'M8 Bright Zinc Washer(00HSW-3507-001-00)', '', ( #201 ) ) ;
#162 = CARTESIAN_POINT ( 'NONE',  ( 0.000000000000000000, 1.399999999999999911, 0.000000000000000000 ) ) ;
#163 = EDGE_CURVE ( 'NONE', #1, #187, #115, .T. ) ;
#164 = CARTESIAN_POINT ( 'NONE',  ( 0.000000000000000000, 0.000000000000000000, 0.000000000000000000 ) ) ;
#165 = DIRECTION ( 'NONE',  ( -0.000000000000000000, -1.000000000000000000, -0.000000000000000000 ) ) ;
#166 = ORIENTED_EDGE ( 'NONE', *, *, #51, .T. ) ;
#167 = CIRCLE ( 'NONE', #62, 4.200000000000000178 ) ;
#168 = VECTOR ( 'NONE', #64, 1000.000000000000000 ) ;
#169 = CARTESIAN_POINT ( 'NONE',  ( 0.000000000000000000, 0.000000000000000000, 0.000000000000000000 ) ) ;
#170 = EDGE_LOOP ( 'NONE', ( #92, #104, #171, #30 ) ) ;
#171 = ORIENTED_EDGE ( 'NONE', *, *, #66, .F. ) ;
#172 = PRODUCT_DEFINITION ( 'UNKNOWN', '', #159, #179 ) ;
#173 = PRESENTATION_LAYER_ASSIGNMENT (  '', '', ( #8 ) ) ;
#174 = EDGE_LOOP ( 'NONE', ( #136, #109 ) ) ;
#175 = FACE_OUTER_BOUND ( 'NONE', #124, .T. ) ;
#176 = CARTESIAN_POINT ( 'NONE',  ( 0.000000000000000000, 1.399999999999999911, 0.000000000000000000 ) ) ;
#177 = CARTESIAN_POINT ( 'NONE',  ( 0.000000000000000000, 1.399999999999999911, 0.000000000000000000 ) ) ;
#178 = FACE_OUTER_BOUND ( 'NONE', #194, .T. ) ;
#179 = PRODUCT_DEFINITION_CONTEXT ( 'detailed design', #149, 'design' ) ;
#180 = CARTESIAN_POINT ( 'NONE',  ( 5.143516556418883914E-16, 1.399999999999999911, 4.200000000000000178 ) ) ;
#181 = ADVANCED_FACE ( 'NONE', ( #5 ), #131, .T. ) ;
#182 = APPLICATION_PROTOCOL_DEFINITION ( 'draft international standard', 'automotive_design', 1998, #90 ) ;
#183 = CIRCLE ( 'NONE', #148, 7.500000000000000000 ) ;
#184 =( LENGTH_UNIT ( ) NAMED_UNIT ( * ) SI_UNIT ( .MILLI., .METRE. ) );
#185 = VERTEX_POINT ( 'NONE', #80 ) ;
#186 = APPLICATION_PROTOCOL_DEFINITION ( 'draft international standard', 'automotive_design', 1998, #149 ) ;
#187 = VERTEX_POINT ( 'NONE', #39 ) ;
#188 = AXIS2_PLACEMENT_3D ( 'NONE', #177, #24, #129 ) ;
#189 = VERTEX_POINT ( 'NONE', #198 ) ;
#190 = DIRECTION ( 'NONE',  ( 0.000000000000000000, 1.000000000000000000, 0.000000000000000000 ) ) ;
#191 = AXIS2_PLACEMENT_3D ( 'NONE', #144, #111, #128 ) ;
#192 = CARTESIAN_POINT ( 'NONE',  ( 0.000000000000000000, 1.399999999999999911, 0.000000000000000000 ) ) ;
#193 = FILL_AREA_STYLE_COLOUR ( '', #143 ) ;
#194 = EDGE_LOOP ( 'NONE', ( #76, #166, #55, #135 ) ) ;
#195 = DIRECTION ( 'NONE',  ( 0.000000000000000000, 0.000000000000000000, 1.000000000000000000 ) ) ;
#196 = LINE ( 'NONE', #112, #168 ) ;
#197 = LINE ( 'NONE', #23, #19 ) ;
#198 = CARTESIAN_POINT ( 'NONE',  ( 9.184850993605147944E-16, 0.000000000000000000, 7.500000000000000000 ) ) ;
#199 = DIRECTION ( 'NONE',  ( -0.000000000000000000, -1.000000000000000000, -0.000000000000000000 ) ) ;
#200 = AXIS2_PLACEMENT_3D ( 'NONE', #164, #114, #95 ) ;
#201 = PRODUCT_CONTEXT ( 'NONE', #90, 'mechanical' ) ;
#202 = ADVANCED_FACE ( 'NONE', ( #175 ), #21, .T. ) ;
#203 = EDGE_LOOP ( 'NONE', ( #108, #57, #134, #126 ) ) ;
#204 = EDGE_LOOP ( 'NONE', ( #132, #56 ) ) ;
#205 = VERTEX_POINT ( 'NONE', #60 ) ;
#206 = CARTESIAN_POINT ( 'NONE',  ( 0.000000000000000000, 1.399999999999999911, -4.200000000000000178 ) ) ;
#207 = FACE_OUTER_BOUND ( 'NONE', #204, .T. ) ;
#208 = EDGE_CURVE ( 'NONE', #2, #189, #197, .T. ) ;
#209 = DIRECTION ( 'NONE',  ( 0.000000000000000000, 0.000000000000000000, -1.000000000000000000 ) ) ;
#210 = CARTESIAN_POINT ( 'NONE',  ( 0.000000000000000000, 1.399999999999999911, -7.500000000000000000 ) ) ;
#211 = AXIS2_PLACEMENT_3D ( 'NONE', #4, #139, #209 ) ;
#212 = FACE_BOUND ( 'NONE', #122, .T. ) ;
#213 = CYLINDRICAL_SURFACE ( 'NONE', #188, 4.200000000000000178 ) ;
#214 = DIRECTION ( 'NONE',  ( 0.000000000000000000, 1.000000000000000000, 0.000000000000000000 ) ) ;
ENDSEC;
END-ISO-10303-21;
